tabs RECHERCHER D'AUTRES TABS guitare Niko's Art'Site
 (Guitar/bass tabs et other arts)
                     http://nikoxyd.free.fr


=========================================================================================

AUTEUR : ACDC
  TITRE : Back In Black   (Version 2)


LogoPDF Version imprimable (.pdf) :  CLIQUEZ-ICI


=========================================================================================

Accordage / TuningE-A-D-G-B-e                                                        Capo : 


=========================================================================================

REMARQUES / COMMENTS :


=========================================================================================


Intro:
                                 
---------------------|-------3-0------------|
---------------------|-----------3-0--------|
------7-7-7----------|---------------2^f^p0-| faire un bend et relācher
--2---7-7-7--7-7-7---|-x-x-x----------------| le doigt de la corde
--2---5-5-5--7-7-7---|-x-x-x----------------|
--0----------5-5-5---|-x-x-x----------------|

---------------------|----------------------|
---------------------|----------------------|
------7-7-7----------|----------------------|
--2---7-7-7--7-7-7---|----------------------|
--2---5-5-5--7-7-7---|--2---2---2---2-------|
--0----------5-5-5---|----4---5---6---7\----|


Refrain:

----------------|-----|--3-----------|------|--3--|-------|
----------------|-----|--3--3--------|------|--3--|-3-3-3-|
--2-----4--2--4-|--%--|--0--2--2---2-|--%---|--0--|-2-2-2-|
--2--2--4--2--4-|--%--|-----0--2---2-|--%---|--0--|-0-0-0-|
--0--2--2--0--2-|-----|--------0---0-|------|-----|-------|
-----0----------|-----|----------3---|------|--3--|-------|





_________________________________________________________________________________________
tabs RECHERCHER D'AUTRES TABS guitare Niko's Art'Site
 (Guitar/bass tabs et other arts)
                     http://nikoxyd.free.fr