tabs RECHERCHER D'AUTRES TABS guitare Niko's Art'Site
 (Guitar/bass tabs et other arts)
                     http://nikoxyd.free.fr

=========================================================================================


AUTEUR : ARCHIVE
  TITRE : Goodbye 



LogoPDF Version imprimable (.pdf) :  CLIQUEZ-ICI

=========================================================================================
Transcription : Skip el Caribo0

=========================================================================================
Accordage / Tuning : E-A-D-G-B-e   

=========================================================================================
REMARQUES / COMMENTS :

=========================================================================================

Ceci est la partie piano, sympa pour jouer a deux guitares par exemple.

        G                                    D
------:------------------------------------:------------------------------------
------:12-------12-------12-------12-------:10-------10-------10-------10-------
------:---12-------12-------12-------12----:---11-------11-------11-------11----
------:------12-------12-------12-------12-:------12-------12-------12-------12-
------:10----------------------------------:-9----------------------------------
------:------------------------------------:------------------------------------

        Em                 C
------:--------------------------------:-3-------3-------3-------3----------
------:8-------8-------8-------8-------:----5-------5-------5-------5-------
------:---9-------9-------9-------9----:-------5-------5-------5-------5----
------:------9-------9-------9-------9-:------------------------------------
------:7-------------------------------:-3----------------------------------
------:--------------------------------:------------------------------------


On peut le jouer aussi sans la ligne de basse, ca donne ca :

-7-------7-------7-------7----------:-5-------5-------5-------5----------
----8-------8-------8-------8-------:----7-------7-------7-------7-------
-------7-------7-------7-------7----:-------7-------7-------7-------7----
------------------------------------:------------------------------------
------------------------------------:------------------------------------
------------------------------------:------------------------------------


-3-------3-------3-------3----------:-3-------3-------3-------3----------
----5-------5-------5-------5-------:----5-------5-------5-------5-------
-------4-------4-------4-------4----:-------5-------5-------5-------5----
------------------------------------:------------------------------------
------------------------------------:------------------------------------
------------------------------------:------------------------------------

et voila.


_________________________________________________________________________________________
tabs RECHERCHER D'AUTRES TABS guitare Niko's Art'Site
 (Guitar/bass tabs et other arts)
                     http://nikoxyd.free.fr