tabs RECHERCHER D'AUTRES TABS guitare Niko's Art'Site
 (Guitar/bass tabs et other arts)
                     http://nikoxyd.free.fr

=========================================================================================

AUTEUR : LUDWIG VAN BEETHOVEN
  TITRELettre Ó Elise



LogoPDF Version imprimable (.pdf) :  CLIQUEZ-ICI

=========================================================================================
Accordage / Tuning : E-A-D-G-B-e                                             

=========================================================================================
REMARQUES / COMMENTS :

=========================================================================================

E--------------------------------------------------------------------------
B--5--4--5--4--5--0--3--1--------------------0------------0--1----5--4--5--
G----------------------------2---------1--2------------2-------------------
D-----------------------------------2---------------2----------------------
A--------------------------------------------------------------------------
E--------------------------------------------------------------------------



-----------------------------------------------------------------------
--4--5--0--3--1--------------------0-------1--0------------------1--3--
-----------------2-----------1--2------------------2----------2--------
--------------------------2-------------2------------------------------
-----------------------------------------------------------------------
-----------------------------------------------------------------------



--0-------1--0------------0----------------------------------------
-------1--------3----0-------3--1---------3--1----0----------------
-------------------------------------2-----------------------------
-------------------------------------------------------------------
-------------------------------------------------------------------
-------------------------------------------------------------------

 





____________________________________________________________________________________________________________
tabs RECHERCHER D'AUTRES TABS guitare Niko's Art'Site
 (Guitar/bass tabs et other arts)
                     http://nikoxyd.free.fr