tabs RECHERCHER D'AUTRES TABS guitare Niko's Art'Site
 (Guitar/bass tabs et other arts)
                     http://nikoxyd.free.fr

=========================================================================================


AUTEUR : The FUGEES
  TITRE : No Woman No Cry

    Album : The Score

LogoPDF Version imprimable (.pdf) :  CLIQUEZ-ICI

=========================================================================================
Transcription : Matthieu Piganiol       (cowboymat@caramail.com)

Divers :
    Ecrit par V. Ford
    Produit par Wyclef and Lauryn Hill

=========================================================================================
Accordage / Tuning : E-A-D-G-B-e                               

=========================================================================================
REMARQUES / COMMENTS :

=========================================================================================
Voici la partie de la guitare principale qui est répétée en boucle durant tout le morceau


C G Am
e-----------0 -----------3---------------------------------------------------
B----------1-----------3-----------------------1-----------------------------
G---------0------------------------------------2-----------------------------
D----------------------------------------------2--------0h2h3--3----2---2----
A---3--------------------------2h3----0--------------------------------------
E-------------0h1s3----------------------------------------------------------


On trouve quelques variantes dans le morceau principal qui arrive de temps en temps,

 elles sont facile à entendre, et elles ne sont pas obligatoires. Il y a par exemple:


e ---0h1--1--0--0----------------------
B -----------------1-------------------
G -------------------------------------

Que l'on peut enchainer avec :


e ----------------------------------
B ----------0------1----------------
G --0---2-------0-------------------

Ou alors :
e --------------------------------
B ---------------------------------
G ---------------------------------
D ---------------------------------
A ---------------------------------
E ---------3---5---7---3-----------


PAROLES


Intro

A dedication to all the refugees worldwide, aie, one time...


Couplet 1

Say, say say
I remember, when we used to say,
In a government yard in Brooklyn.

Aba aba sufferin' the crookedness,
As we mingle with the good people we meet.

Good friends we've had oh, good friends we've lost,
along, the way.

In this grim future you can't forget your past,

So dry your tears I say, to my pe'p's who've past away.


Refrain

No woman no cry.
No woman no cry, (say say say).

Hey 'ear little sister, don't shed no tears. Le mot contracté est "hear"

No woman no cry, say say say.


Couplet2

I remember, when we used to rock, oh
On a project yard in Jersey.

And little Georgie, would make the fire live,
As stolen cars pass through the night.

And then we'd hit the corner store,
For Roots paper and ro, oooots

[My dreads, my only remedy No chord
For pain of losing family.]

Oh while I'm gone shorty.

Everythings gonna be alright,

Everythings gonna be alright.
Fugees come to the dance tonight

Everythings gonna be alright… (3 fois).
The gun mans in the house tonight

But everythings gonna be alright
oh ah oh ah oh ah etc.
Refrain


Couplet 3

I remember, when we used to say.
In the government yard in trench town.

Aba aba sufferin' the hypocrites,
As they mingle with the good people we meet.

Good friends we've had, oh, good friends we've lost.
Along the way, hey.

In this great future you can't forget your past,
So dry your tears I say,


Refrain
+
To my pe'p's who've past away.

oh ah, oh ah, oh ah etc > Fade Out
 


____________________________________________________________________________________________________________
tabs RECHERCHER D'AUTRES TABS guitare Niko's Art'Site
 (Guitar/bass tabs et other arts)
                     http://nikoxyd.free.fr