tabs RECHERCHER D'AUTRES TABS guitare Niko's Art'Site
 (Guitar/bass tabs et other arts)
                     http://nikoxyd.free.fr

=========================================================================================


AUTEUR : BEN HARPER
  TITREPower Of The Gospel  

    Album : Fight for your mind - Live from Mars

LogoPDF Version imprimable (.pdf) :  CLIQUEZ-ICI

=========================================================================================
Accordage / Tuning : E-A-D-G-B-e               

=========================================================================================
REMARQUES / COMMENTS :

=========================================================================================
Fight For Your Mind & Live From Mars both start out the same

INTRO:
 
Order 1st once,  2nd twice , 3rd once , 4th three times,  5th once ,  1st once.  

Live from Mars has another addition to the intro


"SECOND" INTRO:
 
 6th once or twice whatever you feel like :)

The verse is only played on Live From Mars


VERSE:
 
7th as many times as you wanna sing

The C chords throughout the 1st part are played as arpeggios

s = strum

Enjoy

-|----------------------------------------------------------------------------
-|-----0-----1--0-----------------------------------1--0----------------------
-|--2-------0------2--0-----------------0----------0------2--0----------------
-|---------2-------------4--2--1--2--4-----4--2---2-------------4--2--1--2----
-|--------3--------------------2-----------------3--------------------2-------
-|--------------------0-----------------0--------------------0-----------0----
                                      1st
 
------------------------------------------------------------------------------
--0-----1--0-----------------------------------1--0---------------------------
-------0------2--0-----------------0----------0------2--0-----------0---------
------2-------------4--2--1--2--4-----4--2---2-------------4--2-----------1---
-----3--------------------2-----------------3--------------------3------------
-----------------0-----------------0--------------------0--------------2------
                                     1st

 -----------|--------------------------------------------|---------------------
-----------|----------------1--1p0-----0--0-------------|---------------------
-----------|------------------------------------2--2p0--|----0----------------
-----2h4p2-|-----2--2p0----------------------0----------|---2------4--4/5\4---
-----------|-------------3------------------------------|--3----2-------------
--0--------|--0---------------------3-------------------|---------------------
                           2nd                                       3rd
 
--------|--------------------------------------------------------|------------
--------|--------------------------------------------------------|------------
--------|--------------------------------------------------------|------------
-2p1h2--|---------9--9---------9--9---------10--10---------9--9--|-----9------
--------|--6/7---7------6/7---7------6/7---7--------6/7---7------|--7-----5---
--------|-------0------------0------------0--------------0-------|------------
                                 4th                                    5th

----------|--------0---------0-------------0--|-------0---0---0---------------
----------|--------0---------0-------------0--|-------0---1---3---------------
----------|--------0---------0-------------0--|-------0---0---2---------------
--7----5--|--0h2---2---0h2---2---0h2p0h2---2--|--0h2--2---2---0----2--2-------
-----3----|--------2---------2-------------2--|-------2---3---0----2----------
----------|--------0---------0-------------0--|-------0------------0-----3---- 
             6th   s         s             s    7th   s   s   s


____________________________________________________________________________________________________________
tabs RECHERCHER D'AUTRES TABS guitare Niko's Art'Site
 (Guitar/bass tabs et other arts)
                     http://nikoxyd.free.fr